  0
SECTION
  2
HEADER
  9
$ACADVER
  1
AC1015
  9
$ACADMAINTVER
 70
     6
  9
$DWGCODEPAGE
  3
ANSI_1252
  9
$INSBASE
 10
0.0
 20
0.0
 30
0.0
  9
$EXTMIN
 10
0.0
 20
0.0
 30
0.0
  9
$EXTMAX
 10
80.0
 20
30.0
 30
0.0
  9
$LIMMIN
 10
0.0
 20
0.0
  9
$LIMMAX
 10
420.0
 20
297.0
  9
$ORTHOMODE
 70
     0
  9
$REGENMODE
 70
     1
  9
$FILLMODE
 70
     1
  9
$QTEXTMODE
 70
     0
  9
$MIRRTEXT
 70
     1
  9
$LTSCALE
 40
1.0
  9
$ATTMODE
 70
     1
  9
$TEXTSIZE
 40
3.5
  9
$TRACEWID
 40
1.0
  9
$TEXTSTYLE
  7
Standard
  9
$CLAYER
  8
0
  9
$CELTYPE
  6
ByLayer
  9
$CECOLOR
 62
   256
  9
$CELTSCALE
 40
1.0
  9
$DISPSILH
 70
     0
  9
$DIMSCALE
 40
1.0
  9
$DIMASZ
 40
3.302
  9
$DIMEXO
 40
1.0
  9
$DIMDLI
 40
3.75
  9
$DIMRND
 40
0.0
  9
$DIMDLE
 40
0.0
  9
$DIMEXE
 40
1.0
  9
$DIMTP
 40
0.0
  9
$DIMTM
 40
0.0
  9
$DIMTXT
 40
3.5
  9
$DIMCEN
 40
2.5
  9
$DIMTSZ
 40
0.0
  9
$DIMTOL
 70
     0
  9
$DIMLIM
 70
     0
  9
$DIMTIH
 70
     1
  9
$DIMTOH
 70
     1
  9
$DIMSE1
 70
     0
  9
$DIMSE2
 70
     0
  9
$DIMTAD
 70
     1
  9
$DIMZIN
 70
     1
  9
$DIMBLK
  1

  9
$DIMASO
 70
     1
  9
$DIMSHO
 70
     1
  9
$DIMPOST
  1

  9
$DIMAPOST
  1

  9
$DIMALT
 70
     0
  9
$DIMALTD
 70
     3
  9
$DIMALTF
 40
0.0393700787
  9
$DIMLFAC
 40
1.0
  9
$DIMTOFL
 70
     1
  9
$DIMTVP
 40
0.0
  9
$DIMTIX
 70
     0
  9
$DIMSOXD
 70
     0
  9
$DIMSAH
 70
     0
  9
$DIMBLK1
  1

  9
$DIMBLK2
  1

  9
$DIMSTYLE
  2
ISO-25
  9
$DIMCLRD
 70
     0
  9
$DIMCLRE
 70
     0
  9
$DIMCLRT
 70
     0
  9
$DIMTFAC
 40
1.0
  9
$DIMGAP
 40
1.524
  9
$DIMJUST
 70
     0
  9
$DIMSD1
 70
     0
  9
$DIMSD2
 70
     0
  9
$DIMTOLJ
 70
     0
  9
$DIMTZIN
 70
     1
  9
$DIMALTZ
 70
     0
  9
$DIMALTTZ
 70
     0
  9
$DIMUPT
 70
     0
  9
$DIMDEC
 70
     2
  9
$DIMTDEC
 70
     2
  9
$DIMALTU
 70
     2
  9
$DIMALTTD
 70
     3
  9
$DIMTXSTY
  7
Standard
  9
$DIMAUNIT
 70
     0
  9
$DIMADEC
 70
     2
  9
$DIMALTRND
 40
0.0
  9
$DIMAZIN
 70
     0
  9
$DIMDSEP
 70
    44
  9
$DIMATFIT
 70
     3
  9
$DIMFRAC
 70
     0
  9
$DIMLDRBLK
  1

  9
$DIMLUNIT
 70
     2
  9
$DIMLWD
 70
    -2
  9
$DIMLWE
 70
    -2
  9
$DIMTMOVE
 70
     0
  9
$LUNITS
 70
     2
  9
$LUPREC
 70
     2
  9
$SKETCHINC
 40
1.0
  9
$FILLETRAD
 40
10.0
  9
$AUNITS
 70
     0
  9
$AUPREC
 70
     2
  9
$MENU
  1
.
  9
$ELEVATION
 40
0.0
  9
$PELEVATION
 40
0.0
  9
$THICKNESS
 40
0.0
  9
$LIMCHECK
 70
     0
  9
$CHAMFERA
 40
0.0
  9
$CHAMFERB
 40
0.0
  9
$CHAMFERC
 40
0.0
  9
$CHAMFERD
 40
0.0
  9
$SKPOLY
 70
     0
  9
$TDCREATE
 40
2458495.410911378
  9
$TDUCREATE
 40
2458495.369244711
  9
$TDUPDATE
 40
2458495.410955011
  9
$TDUUPDATE
 40
2458495.369288345
  9
$TDINDWG
 40
0.0000000116
  9
$TDUSRTIMER
 40
0.0000000116
  9
$USRTIMER
 70
     1
  9
$ANGBASE
 50
0.0
  9
$ANGDIR
 70
     0
  9
$PDMODE
 70
     0
  9
$PDSIZE
 40
-1.0
  9
$PLINEWID
 40
0.0
  9
$SPLFRAME
 70
     0
  9
$SPLINETYPE
 70
     6
  9
$SPLINESEGS
 70
     8
  9
$HANDSEED
  5
C8
  9
$SURFTAB1
 70
     6
  9
$SURFTAB2
 70
     6
  9
$SURFTYPE
 70
     6
  9
$SURFU
 70
     6
  9
$SURFV
 70
     6
  9
$UCSBASE
  2

  9
$UCSNAME
  2

  9
$UCSORG
 10
0.0
 20
0.0
 30
0.0
  9
$UCSXDIR
 10
1.0
 20
0.0
 30
0.0
  9
$UCSYDIR
 10
0.0
 20
1.0
 30
0.0
  9
$UCSORTHOREF
  2

  9
$UCSORTHOVIEW
 70
     0
  9
$UCSORGTOP
 10
0.0
 20
0.0
 30
0.0
  9
$UCSORGBOTTOM
 10
0.0
 20
0.0
 30
0.0
  9
$UCSORGLEFT
 10
0.0
 20
0.0
 30
0.0
  9
$UCSORGRIGHT
 10
0.0
 20
0.0
 30
0.0
  9
$UCSORGFRONT
 10
0.0
 20
0.0
 30
0.0
  9
$UCSORGBACK
 10
0.0
 20
0.0
 30
0.0
  9
$PUCSBASE
  2

  9
$PUCSNAME
  2

  9
$PUCSORG
 10
0.0
 20
0.0
 30
0.0
  9
$PUCSXDIR
 10
1.0
 20
0.0
 30
0.0
  9
$PUCSYDIR
 10
0.0
 20
1.0
 30
0.0
  9
$PUCSORTHOREF
  2

  9
$PUCSORTHOVIEW
 70
     0
  9
$PUCSORGTOP
 10
0.0
 20
0.0
 30
0.0
  9
$PUCSORGBOTTOM
 10
0.0
 20
0.0
 30
0.0
  9
$PUCSORGLEFT
 10
0.0
 20
0.0
 30
0.0
  9
$PUCSORGRIGHT
 10
0.0
 20
0.0
 30
0.0
  9
$PUCSORGFRONT
 10
0.0
 20
0.0
 30
0.0
  9
$PUCSORGBACK
 10
0.0
 20
0.0
 30
0.0
  9
$USERI1
 70
     0
  9
$USERI2
 70
     0
  9
$USERI3
 70
     0
  9
$USERI4
 70
     0
  9
$USERI5
 70
     0
  9
$USERR1
 40
0.0
  9
$USERR2
 40
0.0
  9
$USERR3
 40
0.0
  9
$USERR4
 40
0.0
  9
$USERR5
 40
0.0
  9
$WORLDVIEW
 70
     1
  9
$SHADEDGE
 70
     3
  9
$SHADEDIF
 70
    70
  9
$TILEMODE
 70
     1
  9
$MAXACTVP
 70
    64
  9
$PINSBASE
 10
0.0
 20
0.0
 30
0.0
  9
$PLIMCHECK
 70
     0
  9
$PEXTMIN
 10
1.0000000000E+20
 20
1.0000000000E+20
 30
1.0000000000E+20
  9
$PEXTMAX
 10
-1.0000000000E+20
 20
-1.0000000000E+20
 30
-1.0000000000E+20
  9
$PLIMMIN
 10
0.0
 20
0.0
  9
$PLIMMAX
 10
420.0
 20
297.0
  9
$UNITMODE
 70
     0
  9
$VISRETAIN
 70
     1
  9
$PLINEGEN
 70
     0
  9
$PSLTSCALE
 70
     1
  9
$TREEDEPTH
 70
  3020
  9
$CMLSTYLE
  2
Standard
  9
$CMLJUST
 70
     0
  9
$CMLSCALE
 40
20.0
  9
$PROXYGRAPHICS
 70
     1
  9
$MEASUREMENT
 70
     1
  9
$CELWEIGHT
370
    -1
  9
$ENDCAPS
280
     0
  9
$JOINSTYLE
280
     0
  9
$LWDISPLAY
290
     1
  9
$INSUNITS
 70
     4
  9
$HYPERLINKBASE
  1

  9
$STYLESHEET
  1

  9
$XEDIT
290
     1
  9
$CEPSNTYPE
380
     0
  9
$PSTYLEMODE
290
     1
  9
$FINGERPRINTGUID
  2
{5609624B-AF54-4650-9C4A-23E2B58BA6EA}
  9
$VERSIONGUID
  2
{FAEB1C32-E019-11D5-929B-00C0DF256EC4}
  9
$EXTNAMES
290
     1
  9
$PSVPSCALE
 40
0.0
  9
$OLESTARTUP
290
     0
  0
ENDSEC
  0
SECTION
  2
CLASSES
  0
CLASS
  1
ACDBDICTIONARYWDFLT
  2
AcDbDictionaryWithDefault
  3
ObjectDBX Classes
 90
        0
280
     0
281
     0
  0
CLASS
  1
VISUALSTYLE
  2
AcDbVisualStyle
  3
ObjectDBX Classes
 90
     4095
280
     0
281
     0
  0
CLASS
  1
MATERIAL
  2
AcDbMaterial
  3
ObjectDBX Classes
 90
     1153
280
     0
281
     0
  0
CLASS
  1
SCALE
  2
AcDbScale
  3
ObjectDBX Classes
 90
     1153
280
     0
281
     0
  0
CLASS
  1
TABLESTYLE
  2
AcDbTableStyle
  3
ObjectDBX Classes
 90
     4095
280
     0
281
     0
  0
CLASS
  1
MLEADERSTYLE
  2
AcDbMLeaderStyle
  3
ACDB_MLEADERSTYLE_CLASS
 90
     4095
280
     0
281
     0
  0
CLASS
  1
SUN
  2
AcDbSun
  3
SCENEOE
 90
     1153
280
     0
281
     0
  0
CLASS
  1
ACDBPLACEHOLDER
  2
AcDbPlaceHolder
  3
ObjectDBX Classes
 90
        0
280
     0
281
     0
  0
CLASS
  1
LAYOUT
  2
AcDbLayout
  3
ObjectDBX Classes
 90
        0
280
     0
281
     0
  0
ENDSEC
  0
SECTION
  2
TABLES
  0
TABLE
  2
VPORT
  5
8
330
0
100
AcDbSymbolTable
 70
     1
  0
VPORT
  5
29
330
8
100
AcDbSymbolTableRecord
100
AcDbViewportTableRecord
  2
*Active
 70
     0
 10
0.0
 20
0.0
 11
1.0
 21
1.0
 12
40.0
 22
15.0
 13
0.0
 23
0.0
 14
10.0
 24
10.0
 15
10.0
 25
10.0
 16
0.0
 26
0.0
 36
1.0
 17
0.0
 27
0.0
 37
0.0
 40
30.6
 41
2.6666666667
 42
50.0
 43
0.0
 44
0.0
 50
0.0
 51
0.0
 71
     0
 72
   100
 73
     1
 74
     3
 75
     0
 76
     0
 77
     0
 78
     0
281
     0
 65
     1
110
0.0
120
0.0
130
0.0
111
1.0
121
0.0
131
0.0
112
0.0
122
1.0
132
0.0
 79
     0
146
0.0
  0
ENDTAB
  0
TABLE
  2
LTYPE
  5
5
330
0
100
AcDbSymbolTable
 70
     6
  0
LTYPE
  5
14
330
5
100
AcDbSymbolTableRecord
100
AcDbLinetypeTableRecord
  2
ByBlock
 70
     0
  3

 72
    65
 73
     0
 40
0.0
  0
LTYPE
  5
15
330
5
100
AcDbSymbolTableRecord
100
AcDbLinetypeTableRecord
  2
ByLayer
 70
     0
  3

 72
    65
 73
     0
 40
0.0
  0
LTYPE
  5
16
330
5
100
AcDbSymbolTableRecord
100
AcDbLinetypeTableRecord
  2
Continuous
 70
     0
  3
Solid line
 72
    65
 73
     0
 40
0.0
  0
LTYPE
  5
6E
330
5
100
AcDbSymbolTableRecord
100
AcDbLinetypeTableRecord
  2
HIDDEN
 70
     0
  3
Hidden __ __ __ __ __ __ __ __ __ __ __ __ __ __
 72
    65
 73
     2
 40
1.905
 49
1.27
 74
     0
 49
-0.635
 74
     0
  0
LTYPE
  5
6F
330
5
100
AcDbSymbolTableRecord
100
AcDbLinetypeTableRecord
  2
PHANTOM
 70
     0
  3
Phantom ______  __  __  ______  __  __  ______
 72
    65
 73
     6
 40
12.7
 49
6.35
 74
     0
 49
-1.27
 74
     0
 49
1.27
 74
     0
 49
-1.27
 74
     0
 49
1.27
 74
     0
 49
-1.27
 74
     0
  0
LTYPE
  5
70
330
5
100
AcDbSymbolTableRecord
100
AcDbLinetypeTableRecord
  2
CENTER
 70
     0
  3
Center ____ _ ____ _ ____ _ ____ _ ____ _ ____
 72
    65
 73
     4
 40
10.16
 49
6.35
 74
     0
 49
-1.27
 74
     0
 49
1.27
 74
     0
 49
-1.27
 74
     0
  0
LTYPE
  5
71
330
5
100
AcDbSymbolTableRecord
100
AcDbLinetypeTableRecord
  2
CENTERX2
 70
     0
  3
Center (2x) ________  __  ________  __  _____
 72
    65
 73
     4
 40
20.32
 49
12.7
 74
     0
 49
-2.54
 74
     0
 49
2.54
 74
     0
 49
-2.54
 74
     0
  0
LTYPE
  5
72
330
5
100
AcDbSymbolTableRecord
100
AcDbLinetypeTableRecord
  2
DOT2
 70
     0
  3
Dot (.5x) ........................................
 72
    65
 73
     2
 40
0.635
 49
0.0
 74
     0
 49
-0.635
 74
     0
  0
ENDTAB
  0
TABLE
  2
LAYER
  5
2
330
0
100
AcDbSymbolTable
 70
     1
  0
LAYER
  5
10
330
2
100
AcDbSymbolTableRecord
100
AcDbLayerTableRecord
  2
0
 70
     0
 62
     7
  6
Continuous
370
    -3
390
F
  0
ENDTAB
  0
TABLE
  2
STYLE
  5
3
330
0
100
AcDbSymbolTable
 70
     2
  0
STYLE
  5
11
330
3
100
AcDbSymbolTableRecord
100
AcDbTextStyleTableRecord
  2
Standard
 70
     0
 40
0.0
 41
1.0
 50
0.0
 71
     0
 42
3.5
  3
txt
  4

  0
STYLE
  5
C5
330
3
100
AcDbSymbolTableRecord
100
AcDbTextStyleTableRecord
  2
SLDTEXTSTYLE0
 70
     0
 40
0.0
 41
0.7
 50
0.0
 71
     0
 42
3.5
  3
TXT
  4

  0
ENDTAB
  0
TABLE
  2
VIEW
  5
6
330
0
100
AcDbSymbolTable
 70
     0
  0
ENDTAB
  0
TABLE
  2
UCS
  5
7
330
0
100
AcDbSymbolTable
 70
     0
  0
ENDTAB
  0
TABLE
  2
APPID
  5
9
330
0
100
AcDbSymbolTable
 70
     1
  0
APPID
  5
12
330
9
100
AcDbSymbolTableRecord
100
AcDbRegAppTableRecord
  2
ACAD
 70
     0
  0
ENDTAB
  0
TABLE
  2
DIMSTYLE
  5
A
330
0
100
AcDbSymbolTable
 70
     1
100
AcDbDimStyleTable
  0
DIMSTYLE
105
27
330
A
100
AcDbSymbolTableRecord
100
AcDbDimStyleTableRecord
  2
ISO-25
 70
     0
 41
2.5
 42
0.625
 43
3.75
 44
1.25
 73
     0
 74
     0
 77
     1
 78
     8
140
2.5
141
2.5
143
0.0393700787
147
0.625
171
     3
172
     1
178
     0
271
     2
272
     2
274
     3
278
    44
283
     0
284
     8
340
11
  0
ENDTAB
  0
TABLE
  2
BLOCK_RECORD
  5
1
330
0
100
AcDbSymbolTable
 70
     1
  0
BLOCK_RECORD
  5
1F
330
1
100
AcDbSymbolTableRecord
100
AcDbBlockTableRecord
  2
*Model_Space
340
22
  0
BLOCK_RECORD
  5
1B
330
1
100
AcDbSymbolTableRecord
100
AcDbBlockTableRecord
  2
*Paper_Space
340
1E
  0
BLOCK_RECORD
  5
23
330
1
100
AcDbSymbolTableRecord
100
AcDbBlockTableRecord
  2
*Paper_Space0
340
26
  0
ENDTAB
  0
ENDSEC
  0
SECTION
  2
BLOCKS
  0
BLOCK
  5
20
330
1F
100
AcDbEntity
  8
0
100
AcDbBlockBegin
  2
*Model_Space
 70
     0
 10
0.0
 20
0.0
 30
0.0
  3
*Model_Space
  1

  0
ENDBLK
  5
21
330
1F
100
AcDbEntity
  8
0
100
AcDbBlockEnd
  0
BLOCK
  5
1C
330
1B
100
AcDbEntity
 67
     1
  8
0
100
AcDbBlockBegin
  2
*Paper_Space
 70
     0
 10
0.0
 20
0.0
 30
0.0
  3
*Paper_Space
  1

  0
ENDBLK
  5
1D
330
1B
100
AcDbEntity
 67
     1
  8
0
100
AcDbBlockEnd
  0
BLOCK
  5
24
330
23
100
AcDbEntity
  8
0
100
AcDbBlockBegin
  2
*Paper_Space0
 70
     0
 10
0.0
 20
0.0
 30
0.0
  3
*Paper_Space0
  1

  0
ENDBLK
  5
25
330
23
100
AcDbEntity
  8
0
100
AcDbBlockEnd
  0
ENDSEC
  0
SECTION
  2
ENTITIES
  0
SPLINE
  5
73
330
1F
100
AcDbEntity
  8
0
  6
Continuous
 62
     7
370
    25
100
AcDbSpline
210
0.0
220
0.0
230
1.0
 70
     8
 71
     3
 72
    31
 73
    27
 74
     0
 42
0.000000001
 43
0.00000001
 40
0.0
 40
0.0
 40
0.0
 40
0.0
 40
0.042039379701216
 40
0.0835444645653604
 40
0.1246430566734483
 40
0.1653030634519556
 40
0.2061707471365317
 40
0.2469707199288928
 40
0.2883292660238633
 40
0.3299865328252055
 40
0.3717974728955513
 40
0.4127376294246819
 40
0.4534592805187264
 40
0.4940013424196679
 40
0.5343806676011649
 40
0.5749515452974724
 40
0.6158917018266032
 40
0.6572495587215953
 40
0.699006606824371
 40
0.7404862737502689
 40
0.7823251557075465
 40
0.8245674554627295
 40
0.8670412437308946
 40
0.9104995314822234
 40
0.9546191761738277
 40
1.0
 40
1.0
 40
1.0
 40
1.0
 10
21.61167747914737
 20
15.81926262743281
 30
0.0
 10
21.61395849973347
 20
15.99568942466882
 30
0.0
 10
21.61849155052735
 20
16.34630074231481
 30
0.0
 10
21.67345804840411
 20
16.86683205998862
 30
0.0
 10
21.75232126837891
 20
17.37812074068809
 30
0.0
 10
21.86823721661451
 20
17.8797488390043
 30
0.0
 10
22.01436406539521
 20
18.37205137512591
 30
0.0
 10
22.19673614832683
 20
18.85525693455847
 30
0.0
 10
22.40907141671074
 20
19.32965067003767
 30
0.0
 10
22.65586640026947
 20
19.79196724715533
 30
0.0
 10
22.93051408371867
 20
20.23607187337187
 30
0.0
 10
23.22858645654902
 20
20.66017674494882
 30
0.0
 10
23.55431617184463
 20
21.05655845201448
 30
0.0
 10
23.90238388411504
 20
21.43023694455218
 30
0.0
 10
24.27694241361245
 20
21.77651771734916
 30
0.0
 10
24.67448280075903
 20
22.09860676312553
 30
0.0
 10
25.09531141309354
 20
22.39693613085326
 30
0.0
 10
25.54075218448477
 20
22.66680685118335
 30
0.0
 10
26.00415654635526
 20
22.90922236747179
 30
0.0
 10
26.4844136954127
 20
23.12174756056013
 30
0.0
 10
26.98137702787048
 20
23.2973903411287
 30
0.0
 10
27.49132336057053
 20
23.44642082525092
 30
0.0
 10
28.0181126490451
 20
23.55662857064249
 30
0.0
 10
28.55792209281105
 20
23.63655176514992
 30
0.0
 10
29.11356543002837
 20
23.69124004940827
 30
0.0
 10
29.48914841285568
 20
23.69563828858984
 30
0.0
 10
29.67958613299352
 20
23.69786839666358
 30
0.0
  0
SPLINE
  5
74
330
1F
100
AcDbEntity
  8
0
  6
Continuous
 62
     7
370
    25
100
AcDbSpline
210
0.0
220
0.0
230
1.0
 70
     8
 71
     3
 72
    15
 73
    11
 74
     0
 42
0.000000001
 43
0.00000001
 40
0.0
 40
0.0
 40
0.0
 40
0.0
 40
0.1278956773735369
 40
0.2536684183228695
 40
0.3767384322070103
 40
0.4993444727460726
 40
0.62199930685608
 40
0.745698547513127
 40
0.8713451527522129
 40
1.0
 40
1.0
 40
1.0
 40
1.0
 10
23.45061978683967
 20
10.76517608897127
 30
0.0
 10
23.30410864997253
 20
10.94805031615867
 30
0.0
 10
23.01351831010336
 20
11.31076324684794
 30
0.0
 10
22.63946906744926
 20
11.89190586582709
 30
0.0
 10
22.32060591246027
 20
12.49362812369629
 30
0.0
 10
22.06188667473764
 20
13.11760510237035
 30
0.0
 10
21.8598663046998
 20
13.76325315742532
 30
0.0
 10
21.71498236435364
 20
14.42974726268627
 30
0.0
 10
21.63009398211614
 20
15.11794567927635
 30
0.0
 10
21.61786453594191
 20
15.58365395641768
 30
0.0
 10
21.61167747914737
 20
15.81926262743281
 30
0.0
  0
SPLINE
  5
75
330
1F
100
AcDbEntity
  8
0
  6
Continuous
 62
     7
370
    25
100
AcDbSpline
210
0.0
220
0.0
230
1.0
 70
     8
 71
     3
 72
    23
 73
    19
 74
     0
 42
0.000000001
 43
0.00000001
 40
0.0
 40
0.0
 40
0.0
 40
0.0
 40
0.0692365237083658
 40
0.1365567393230025
 40
0.2020941572673308
 40
0.266464260366058
 40
0.3297688228727743
 40
0.391878965921428
 40
0.4532705931030387
 40
0.5141146640704626
 40
0.5743895103654875
 40
0.6341416638513265
 40
0.6939232874993251
 40
0.7541521963073887
 40
0.8144701641300349
 40
0.8756606301311733
 40
0.9373480106280028
 40
0.9999999999999999
 40
0.9999999999999999
 40
0.9999999999999999
 40
0.9999999999999999
 10
29.95001882530121
 20
7.928637627432813
 30
0.0
 10
29.78068967374151
 20
7.931076718427231
 30
0.0
 10
29.4467180129643
 20
7.93588739197452
 30
0.0
 10
28.95347117836493
 20
7.970076023813192
 30
0.0
 10
28.47382423303198
 20
8.022707065084745
 30
0.0
 10
28.00784705207511
 20
8.102186165702065
 30
0.0
 10
27.55382558559476
 20
8.199534683519715
 30
0.0
 10
27.11402736449636
 20
8.32419204971838
 30
0.0
 10
26.68677704143439
 20
8.468486475494199
 30
0.0
 10
26.27141424582645
 20
8.632610790380003
 30
0.0
 10
25.87170904532944
 20
8.822775033245174
 30
0.0
 10
25.48588111544893
 20
9.034102059621851
 30
0.0
 10
25.11179771943927
 20
9.265502177111863
 30
0.0
 10
24.75200701240119
 20
9.520977230219541
 30
0.0
 10
24.40463434893519
 20
9.798616345234274
 30
0.0
 10
24.07191959062639
 20
10.09897599800461
 30
0.0
 10
23.75200011319465
 20
10.42113793974791
 30
0.0
 10
23.5515981265896
 20
10.64990512374478
 30
0.0
 10
23.45061978683967
 20
10.76517608897127
 30
0.0
  0
SPLINE
  5
76
330
1F
100
AcDbEntity
  8
0
  6
Continuous
 62
     7
370
    25
100
AcDbSpline
210
0.0
220
0.0
230
1.0
 70
     8
 71
     3
 72
    23
 73
    19
 74
     0
 42
0.000000001
 43
0.00000001
 40
0.0
 40
0.0
 40
0.0
 40
0.0
 40
0.071272277891841
 40
0.1394927224241748
 40
0.2046354187153386
 40
0.2674057403862638
 40
0.3284455975269838
 40
0.3883971631415409
 40
0.4477339312582656
 40
0.5073916212312172
 40
0.5667675553634343
 40
0.625478337516418
 40
0.6840665059187969
 40
0.7432484458153411
 40
0.8040333573982572
 40
0.866498750699673
 40
0.9317232379841588
 40
1.0
 40
1.0
 40
1.0
 40
1.0
 10
37.38090824837813
 20
15.6209453197405
 30
0.0
 10
37.37359746961121
 20
15.33419893907969
 30
0.0
 10
37.35928895494878
 20
14.77298447439883
 30
0.0
 10
37.25892217357452
 20
13.95454045653604
 30
0.0
 10
37.09685140671881
 20
13.18151891377047
 30
0.0
 10
36.87545007016641
 20
12.45310574949094
 30
0.0
 10
36.58884172601587
 20
11.77033320910765
 30
0.0
 10
36.24010231837487
 20
11.13250806850203
 30
0.0
 10
35.82365037094747
 20
10.54375086478683
 30
0.0
 10
35.35431990733493
 20
9.99925513501939
 30
0.0
 10
34.82760580253769
 20
9.513558511420788
 30
0.0
 10
34.25774028834807
 20
9.086675920226325
 30
0.0
 10
33.64378185255161
 20
8.72709328303731
 30
0.0
 10
32.98631124902496
 20
8.434547587020464
 30
0.0
 10
32.28748082000043
 20
8.206230465956786
 30
0.0
 10
31.54567347808826
 20
8.044352280170248
 30
0.0
 10
30.76189518944178
 20
7.947366722967175
 30
0.0
 10
30.2247380027732
 20
7.934975096962966
 30
0.0
 10
29.95001882530121
 20
7.928637627432811
 30
0.0
  0
SPLINE
  5
7A
330
1F
100
AcDbEntity
  8
0
  6
Continuous
 62
     7
370
    25
100
AcDbSpline
210
0.0
220
0.0
230
1.0
 70
     8
 71
     3
 72
    23
 73
    19
 74
     0
 42
0.000000001
 43
0.00000001
 40
0.0
 40
0.0
 40
0.0
 40
0.0
 40
0.0706300675154713
 40
0.1386936125963035
 40
0.2049177148347016
 40
0.2694408834246986
 40
0.3326363346470521
 40
0.3953016944998478
 40
0.457763931471421
 40
0.520657020425741
 40
0.5828516518872653
 40
0.6433151976010489
 40
0.7025802319030134
 40
0.7609075386276836
 40
0.8194896127674752
 40
0.8782690759233587
 40
0.9384913105361307
 40
1.0
 40
1.0
 40
1.0
 40
1.0
 10
30.06720632530121
 20
9.46709916589435
 30
0.0
 10
30.2616849563049
 20
9.471164492950216
 30
0.0
 10
30.64357534457014
 20
9.479147423104429
 30
0.0
 10
31.20494581330916
 20
9.541291520483124
 30
0.0
 10
31.74410183070535
 20
9.638349207604955
 30
0.0
 10
32.25952841609007
 20
9.780488764829709
 30
0.0
 10
32.75182421910505
 20
9.961790229103118
 30
0.0
 10
33.2227939676592
 20
10.18034188539085
 30
0.0
 10
33.66872964758773
 20
10.44452642429522
 30
0.0
 10
34.09097181995587
 20
10.74270014037627
 30
0.0
 10
34.47993118631787
 20
11.07490656531803
 30
0.0
 10
34.83073457527369
 20
11.43338280169733
 30
0.0
 10
35.13778667193007
 20
11.8163888016469
 30
0.0
 10
35.40566395446421
 20
12.22166872436153
 30
0.0
 10
35.62727247316328
 20
12.65257717440535
 30
0.0
 10
35.80917016633765
 20
13.10700244207619
 30
0.0
 10
35.94859855900987
 20
13.58514892180325
 30
0.0
 10
36.00583416547317
 20
13.91554162919739
 30
0.0
 10
36.03475440222429
 20
14.08248378127896
 30
0.0
  0
SPLINE
  5
7B
330
1F
100
AcDbEntity
  8
0
  6
Continuous
 62
     7
370
    25
100
AcDbSpline
210
0.0
220
0.0
230
1.0
 70
     8
 71
     3
 72
    31
 73
    27
 74
     0
 42
0.000000001
 43
0.00000001
 40
0.0
 40
0.0
 40
0.0
 40
0.0
 40
0.0389942033259357
 40
0.0778819264566277
 40
0.1166515665855554
 40
0.1554160645113798
 40
0.1946182927830765
 40
0.234261463916927
 40
0.2745471077506719
 40
0.315667308943286
 40
0.3570195563769784
 40
0.3980825120664325
 40
0.4390978641477903
 40
0.4798332779738373
 40
0.5212741319644051
 40
0.5628408280340158
 40
0.6052920613462593
 40
0.6484086595339285
 40
0.6917272922059634
 40
0.7351488851450337
 40
0.7783689248959231
 40
0.8216608583029651
 40
0.8655236990058882
 40
0.9097314975427169
 40
0.9545225648198413
 40
1.0
 40
1.0
 40
1.0
 40
1.0
 10
22.95783132530121
 20
15.87935878127896
 30
0.0
 10
22.96107011787491
 20
15.74105527889488
 30
0.0
 10
22.96753885895739
 20
15.46482593497579
 30
0.0
 10
23.00894022854905
 20
15.05256562386378
 30
0.0
 10
23.08577554468906
 20
14.64642818494087
 30
0.0
 10
23.18849429698575
 20
14.2450790432399
 30
0.0
 10
23.31698350700919
 20
13.84783083783621
 30
0.0
 10
23.47715207593167
 20
13.45640579567306
 30
0.0
 10
23.66686179239595
 20
13.07081840469946
 30
0.0
 10
23.88644701537112
 20
12.6945429035775
 30
0.0
 10
24.1272450303238
 20
12.32801566096051
 30
0.0
 10
24.39700109170089
 20
11.98276056741299
 30
0.0
 10
24.68354644926977
 20
11.65418009352897
 30
0.0
 10
24.99732030570038
 20
11.34956967726251
 30
0.0
 10
25.3282612010563
 20
11.06078155031615
 30
0.0
 10
25.68625666964083
 20
10.7957721705719
 30
0.0
 10
26.06426721451089
 20
10.54943692794757
 30
0.0
 10
26.46286955114362
 20
10.3248804164217
 30
0.0
 10
26.87773861874865
 20
10.12427240626833
 30
0.0
 10
27.30312470341622
 20
9.94588428001911
 30
0.0
 10
27.74038677031183
 20
9.798972834521273
 30
0.0
 10
28.18722686881126
 20
9.67923810303859
 30
0.0
 10
28.64311231884497
 20
9.581093972096399
 30
0.0
 10
29.11035718759218
 20
9.51795477062094
 30
0.0
 10
29.58552593781271
 20
9.472136923872817
 30
0.0
 10
29.90583436102138
 20
9.468786909306097
 30
0.0
 10
30.06720632530121
 20
9.46709916589435
 30
0.0
  0
SPLINE
  5
7C
330
1F
100
AcDbEntity
  8
0
  6
Continuous
 62
     7
370
    25
100
AcDbSpline
210
0.0
220
0.0
230
1.0
 70
     8
 71
     3
 72
    31
 73
    27
 74
     0
 42
0.000000001
 43
0.00000001
 40
0.0
 40
0.0
 40
0.0
 40
0.0
 40
0.0428411974873113
 40
0.0855712844305991
 40
0.1277186681017329
 40
0.1700683868047386
 40
0.2127872447034
 40
0.2554815926170274
 40
0.2988770906153881
 40
0.3428605721330526
 40
0.3865275858180487
 40
0.4295323755470744
 40
0.471886213471829
 40
0.5137293024191333
 40
0.555081706254061
 40
0.5965352369663127
 40
0.6381200747249026
 40
0.6798222124149973
 40
0.7213314680361208
 40
0.7618883644915524
 40
0.8021993285625482
 40
0.8418062931797266
 40
0.8810604121451826
 40
0.9206332256982779
 40
0.960101198728402
 40
1.0
 40
1.0
 40
1.0
 40
1.0
 10
29.6345140176089
 20
22.15940685820204
 30
0.0
 10
29.48916530358032
 20
22.15763426151141
 30
0.0
 10
29.19884484385354
 20
22.1540936654382
 30
0.0
 10
28.76760794078358
 20
22.10890417144135
 30
0.0
 10
28.34089378205655
 20
22.04391189704562
 30
0.0
 10
27.91950789025769
 20
21.94987527822031
 30
0.0
 10
27.50263094871424
 20
21.83069359466799
 30
0.0
 10
27.09171283925697
 20
21.68161303793844
 30
0.0
 10
26.68598703324126
 20
21.50780484825813
 30
0.0
 10
26.2892752572767
 20
21.30696567514814
 30
0.0
 10
25.9046730992645
 20
21.08633776187617
 30
0.0
 10
25.54142951791825
 20
20.84184401651358
 30
0.0
 10
25.19722923708184
 20
20.5813206314632
 30
0.0
 10
24.87854169996527
 20
20.29824500495756
 30
0.0
 10
24.58353375695102
 20
19.99518129651939
 30
0.0
 10
24.30518359168571
 20
19.67776712743394
 30
0.0
 10
24.05328089480824
 20
19.33733047637713
 30
0.0
 10
23.82574733089522
 20
18.98013493631667
 30
0.0
 10
23.62276896631008
 20
18.61245412505976
 30
0.0
 10
23.44358902258191
 20
18.23782702643188
 30
0.0
 10
23.29317293058034
 20
17.85749622179616
 30
0.0
 10
23.17416097930044
 20
17.47098446061779
 30
0.0
 10
23.07597246263373
 20
17.08128193222374
 30
0.0
 10
23.00689700333606
 20
16.68569027319065
 30
0.0
 10
22.96795390827542
 20
16.28378590728131
 30
0.0
 10
22.9612177083753
 20
16.01465479986307
 30
0.0
 10
22.95783132530121
 20
15.87935878127896
 30
0.0
  0
SPLINE
  5
7D
330
1F
100
AcDbEntity
  8
0
  6
Continuous
 62
     7
370
    25
100
AcDbSpline
210
0.0
220
0.0
230
1.0
 70
     8
 71
     3
 72
    15
 73
    11
 74
     0
 42
0.000000001
 43
0.00000001
 40
0.0
 40
0.0
 40
0.0
 40
0.0
 40
0.1361444912025634
 40
0.2690425392697016
 40
0.3985166179976852
 40
0.5270995386022373
 40
0.6522825446560292
 40
0.771680404553401
 40
0.8874949318451725
 40
1.0
 40
1.0
 40
1.0
 40
1.0
 10
35.26552363299352
 20
19.65940685820204
 30
0.0
 10
35.0567283981897
 20
19.85582484252642
 30
0.0
 10
34.64411677018445
 20
20.24397711217824
 30
0.0
 10
33.97143001606829
 20
20.74759566276249
 30
0.0
 10
33.26958587038011
 20
21.17902180631473
 30
0.0
 10
32.54224659801876
 20
21.53004853389422
 30
0.0
 10
31.80742422411678
 20
21.81013179321355
 30
0.0
 10
31.07487232581314
 20
22.00953810842934
 30
0.0
 10
30.35210503430412
 20
22.13670612610957
 30
0.0
 10
29.87138838399866
 20
22.15191342335423
 30
0.0
 10
29.63451401760891
 20
22.15940685820205
 30
0.0
  0
SPLINE
  5
7F
330
1F
100
AcDbEntity
  8
0
  6
Continuous
 62
     7
370
    25
100
AcDbSpline
210
0.0
220
0.0
230
1.0
 70
     8
 71
     3
 72
    23
 73
    19
 74
     0
 42
0.000000001
 43
0.00000001
 40
0.0
 40
0.0
 40
0.0
 40
0.0
 40
0.0616169448204977
 40
0.1221791608191559
 40
0.182216270448318
 40
0.2418641286611219
 40
0.3009600556026176
 40
0.3599690678733915
 40
0.4190329181378677
 40
0.4780686870130227
 40
0.5379925810732203
 40
0.5989602303291967
 40
0.6613210788822634
 40
0.7252475688866924
 40
0.7912201541522487
 40
0.8587459718448145
 40
0.9283175814122139
 40
1.0
 40
1.0
 40
1.0
 40
1.0
 10
29.67958613299352
 20
23.69786839666358
 30
0.0
 10
29.8348928915487
 20
23.69538486061843
 30
0.0
 10
30.14284794328153
 20
23.69046030048738
 30
0.0
 10
30.60110108175271
 20
23.65632609447096
 30
0.0
 10
31.05227114451447
 20
23.6022237468404
 30
0.0
 10
31.49702710113422
 20
23.52839466143945
 30
0.0
 10
31.93385438496044
 20
23.42783598784281
 30
0.0
 10
32.36399740820541
 20
23.3075004822012
 30
0.0
 10
32.78807970640865
 20
23.16739267118304
 30
0.0
 10
33.20477220282943
 20
23.00029761543909
 30
0.0
 10
33.61687670010617
 20
22.8106392229002
 30
0.0
 10
34.02668458785025
 20
22.59715312687852
 30
0.0
 10
34.43279564203917
 20
22.35618882131919
 30
0.0
 10
34.83591413386684
 20
22.08703081191716
 30
0.0
 10
35.2385820963636
 20
21.79430187826264
 30
0.0
 10
35.63443056359456
 20
21.46962977692156
 30
0.0
 10
36.03301461036694
 20
21.12581796613815
 30
0.0
 10
36.28930809985704
 20
20.87860860654791
 30
0.0
 10
36.41936978683967
 20
20.75315685820204
 30
0.0
  0
SPLINE
  5
80
330
1F
100
AcDbEntity
  8
0
  6
Continuous
 62
     7
370
    25
100
AcDbSpline
210
0.0
220
0.0
230
1.0
 70
     8
 71
     3
 72
    15
 73
    11
 74
     0
 42
0.000000001
 43
0.00000001
 40
0.0
 40
0.0
 40
0.0
 40
0.0
 40
0.1318667517023306
 40
0.2566614034533655
 40
0.3842132129425017
 40
0.513365233152583
 40
0.6404431518253927
 40
0.7610850047778818
 40
0.8791455246531585
 40
1.0
 40
1.0
 40
1.0
 40
1.0
 10
40.54797555607044
 20
21.58248378127896
 30
0.0
 10
40.46539723392731
 20
21.58621115365761
 30
0.0
 10
40.30466931894897
 20
21.59346599700171
 30
0.0
 10
40.07166856605365
 20
21.66019464444313
 30
0.0
 10
39.85811789722517
 20
21.76912067201669
 30
0.0
 10
39.66669787154663
 20
21.91580432242477
 30
0.0
 10
39.50713990098036
 20
22.09128245340906
 30
0.0
 10
39.39100422070935
 20
22.289827998511
 30
0.0
 10
39.31782581262813
 20
22.50501008973094
 30
0.0
 10
39.30863454713662
 20
22.65463365962724
 30
0.0
 10
39.30398517145506
 20
22.7303203197405
 30
0.0
  0
SPLINE
  5
81
330
1F
100
AcDbEntity
  8
0
  6
Continuous
 62
     7
370
    25
100
AcDbSpline
210
0.0
220
0.0
230
1.0
 70
     8
 71
     3
 72
    15
 73
    11
 74
     0
 42
0.000000001
 43
0.00000001
 40
0.0
 40
0.0
 40
0.0
 40
0.0
 40
0.120162134992593
 40
0.2375463202768784
 40
0.3574970509273543
 40
0.4849171224652655
 40
0.6133292680851274
 40
0.7401503701286908
 40
0.8673012545632635
 40
1.0
 40
1.0
 40
1.0
 40
1.0
 10
41.80398517145507
 20
22.73032031974051
 30
0.0
 10
41.79934734363429
 20
22.65462323475532
 30
0.0
 10
41.79017890689695
 20
22.50497905612098
 30
0.0
 10
41.71683110010543
 20
22.28994989018207
 30
0.0
 10
41.60102150935181
 20
22.09021724668194
 30
0.0
 10
41.43816811381126
 20
21.91677134577225
 30
0.0
 10
41.2469877095174
 20
21.76908297438434
 30
0.0
 10
41.03163577015985
 20
21.65891980764851
 30
0.0
 10
40.7950838479547
 20
21.59394779036685
 30
0.0
 10
40.63150910857675
 20
21.58635912434324
 30
0.0
 10
40.54797555607044
 20
21.58248378127896
 30
0.0
  0
SPLINE
  5
82
330
1F
100
AcDbEntity
  8
0
  6
Continuous
 62
     7
370
    25
100
AcDbSpline
210
0.0
220
0.0
230
1.0
 70
     8
 71
     3
 72
    15
 73
    11
 74
     0
 42
0.000000001
 43
0.00000001
 40
0.0
 40
0.0
 40
0.0
 40
0.0
 40
0.131899264331078
 40
0.2582840923169732
 40
0.384341124779103
 40
0.5119796151257208
 40
0.6386320084211502
 40
0.759229763164587
 40
0.8774121680352044
 40
1.0
 40
1.0
 40
1.0
 40
1.0
 10
40.54797555607044
 20
23.89017608897127
 30
0.0
 10
40.63150976659103
 20
23.88630115013242
 30
0.0
 10
40.79508579448736
 20
23.87871327565978
 30
0.0
 10
41.03162837024284
 20
23.81373551675141
 30
0.0
 10
41.24701556485137
 20
23.70359400770355
 30
0.0
 10
41.43806299152223
 20
23.55582394670104
 30
0.0
 10
41.60199964872636
 20
23.38204061759
 30
0.0
 10
41.71677412176384
 20
23.17949361061038
 30
0.0
 10
41.79054153368643
 20
22.96067087294385
 30
0.0
 10
41.79944962773309
 20
22.8080347764535
 30
0.0
 10
41.80398517145506
 20
22.7303203197405
 30
0.0
  0
SPLINE
  5
83
330
1F
100
AcDbEntity
  8
0
  6
Continuous
 62
     7
370
    25
100
AcDbSpline
210
0.0
220
0.0
230
1.0
 70
     8
 71
     3
 72
    15
 73
    11
 74
     0
 42
0.000000001
 43
0.00000001
 40
0.0
 40
0.0
 40
0.0
 40
0.0
 40
0.1232898687277962
 40
0.2421490813339709
 40
0.3634374760537272
 40
0.489745393341375
 40
0.6181148445930051
 40
0.7448937812572467
 40
0.868932266589186
 40
1.0
 40
1.0
 40
1.0
 40
1.0
 10
39.30398517145506
 20
22.7303203197405
 30
0.0
 10
39.30853268552725
 20
22.80802396089504
 30
0.0
 10
39.317464290097
 20
22.96063881494616
 30
0.0
 10
39.39105907354752
 20
23.17961752744197
 30
0.0
 10
39.50617253538415
 20
23.38096682088405
 30
0.0
 10
39.66680352195631
 20
23.55679038985241
 30
0.0
 10
39.85808978025805
 20
23.7035565388628
 30
0.0
 10
40.07167583097181
 20
23.81246074530067
 30
0.0
 10
40.3046673997372
 20
23.87919505688757
 30
0.0
 10
40.46539658254536
 20
23.88644911832062
 30
0.0
 10
40.54797555607044
 20
23.89017608897127
 30
0.0
  0
SPLINE
  5
88
330
1F
100
AcDbEntity
  8
0
  6
Continuous
 62
     7
370
    25
100
AcDbSpline
210
0.0
220
0.0
230
1.0
 70
     8
 71
     3
 72
    15
 73
    11
 74
     0
 42
0.000000001
 43
0.00000001
 40
0.0
 40
0.0
 40
0.0
 40
0.0
 40
0.134473074420909
 40
0.2618008081267796
 40
0.3873774882924365
 40
0.5159682374232288
 40
0.6424938986830204
 40
0.76261146418802
 40
0.8796707361187205
 40
1.0
 40
1.0
 40
1.0
 40
1.0
 10
44.97706209453198
 20
21.58248378127896
 30
0.0
 10
44.89254543698173
 20
21.58633054676981
 30
0.0
 10
44.72800298607018
 20
21.59381967660874
 30
0.0
 10
44.49096315563912
 20
21.65814309968814
 30
0.0
 10
44.27773510870808
 20
21.77019701607376
 30
0.0
 10
44.08662584140509
 20
21.91563849188011
 30
0.0
 10
43.92751970834424
 20
22.09141176585059
 30
0.0
 10
43.8102102680554
 20
22.28922440006493
 30
0.0
 10
43.74181109547661
 20
22.50561943557566
 30
0.0
 10
43.7320233696717
 20
22.65473534183834
 30
0.0
 10
43.72706209453198
 20
22.73032031974051
 30
0.0
  0
SPLINE
  5
89
330
1F
100
AcDbEntity
  8
0
  6
Continuous
 62
     7
370
    25
100
AcDbSpline
210
0.0
220
0.0
230
1.0
 70
     8
 71
     3
 72
    15
 73
    11
 74
     0
 42
0.000000001
 43
0.00000001
 40
0.0
 40
0.0
 40
0.0
 40
0.0
 40
0.1203292638812786
 40
0.2373885358119776
 40
0.3575061013169804
 40
0.4840317625767666
 40
0.6126225117075643
 40
0.738199191873214
 40
0.8655269255790842
 40
1.0
 40
1.0
 40
1.0
 40
1.0
 10
46.22706209453199
 20
22.73032031974051
 30
0.0
 10
46.22210081939227
 20
22.65473534183834
 30
0.0
 10
46.21231309358735
 20
22.50561943557566
 30
0.0
 10
46.14391392100859
 20
22.28922440006492
 30
0.0
 10
46.0266044807197
 20
22.09141176585059
 30
0.0
 10
45.86749834765888
 20
21.9156384918801
 30
0.0
 10
45.67638908035588
 20
21.77019701607377
 30
0.0
 10
45.46316103342484
 20
21.65814309968814
 30
0.0
 10
45.2261212029938
 20
21.59381967660874
 30
0.0
 10
45.06157875208223
 20
21.58633054676982
 30
0.0
 10
44.97706209453198
 20
21.58248378127896
 30
0.0
  0
SPLINE
  5
8A
330
1F
100
AcDbEntity
  8
0
  6
Continuous
 62
     7
370
    25
100
AcDbSpline
210
0.0
220
0.0
230
1.0
 70
     8
 71
     3
 72
    15
 73
    11
 74
     0
 42
0.000000001
 43
0.00000001
 40
0.0
 40
0.0
 40
0.0
 40
0.0
 40
0.133660953792206
 40
0.2602197195868813
 40
0.385038006945
 40
0.5128521604600589
 40
0.6386136977492072
 40
0.7593774258103169
 40
0.8772434558629062
 40
0.9999999999999999
 40
0.9999999999999999
 40
0.9999999999999999
 40
0.9999999999999999
 10
44.97706209453198
 20
23.89017608897127
 30
0.0
 10
45.06157943715325
 20
23.88632974577675
 30
0.0
 10
45.22612322180504
 20
23.87884143809141
 30
0.0
 10
45.46315349938158
 20
23.8145121263739
 30
0.0
 10
45.67641723156695
 20
23.70248020734497
 30
0.0
 10
45.86739110656497
 20
23.55695527205708
 30
0.0
 10
46.02757580403171
 20
23.38083977097323
 30
0.0
 10
46.14386270431567
 20
23.18021440400329
 30
0.0
 10
46.21265620024221
 20
22.96003200181283
 30
0.0
 10
46.22219550284021
 20
22.80792140031157
 30
0.0
 10
46.22706209453199
 20
22.73032031974051
 30
0.0
  0
SPLINE
  5
8B
330
1F
100
AcDbEntity
  8
0
  6
Continuous
 62
     7
370
    25
100
AcDbSpline
210
0.0
220
0.0
230
1.0
 70
     8
 71
     3
 72
    15
 73
    11
 74
     0
 42
0.000000001
 43
0.00000001
 40
0.0
 40
0.0
 40
0.0
 40
0.0
 40
0.1227565441370945
 40
0.2406225741896854
 40
0.361386302250792
 40
0.4871478395399457
 40
0.6149619930549992
 40
0.7397802804131249
 40
0.8663390462078008
 40
1.0
 40
1.0
 40
1.0
 40
1.0
 10
43.72706209453197
 20
22.7303203197405
 30
0.0
 10
43.73192868622375
 20
22.80792140031156
 30
0.0
 10
43.74146798882176
 20
22.96003200181283
 30
0.0
 10
43.81026148474826
 20
23.18021440400328
 30
0.0
 10
43.92654838503227
 20
23.38083977097324
 30
0.0
 10
44.08673308249897
 20
23.55695527205707
 30
0.0
 10
44.27770695749701
 20
23.70248020734497
 30
0.0
 10
44.49097068968238
 20
23.8145121263739
 30
0.0
 10
44.72800096725894
 20
23.8788414380914
 30
0.0
 10
44.89254475191071
 20
23.88632974577675
 30
0.0
 10
44.97706209453198
 20
23.89017608897127
 30
0.0
  0
SPLINE
  5
8C
330
1F
100
AcDbEntity
  8
0
  6
Continuous
 62
     7
370
    25
100
AcDbSpline
210
0.0
220
0.0
230
1.0
 70
     8
 71
     3
 72
    11
 73
     7
 74
     0
 42
0.000000001
 43
0.00000001
 40
0.0
 40
0.0
 40
0.0
 40
0.0
 40
0.1618191217494648
 40
0.3786561865823233
 40
0.6590151039600857
 40
1.0
 40
1.0
 40
1.0
 40
1.0
 10
44.14172555607045
 20
5.900392435125119
 30
0.0
 10
44.16804140561158
 20
5.963817011797715
 30
0.0
 10
44.22962040274236
 20
6.112230302382901
 30
0.0
 10
44.2716840938624
 20
6.389912647056671
 30
0.0
 10
44.30119099757821
 20
6.742961602793391
 30
0.0
 10
44.30299510321792
 20
7.006026213229489
 30
0.0
 10
44.30398517145506
 20
7.150392435125118
 30
0.0
  0
SPLINE
  5
8D
330
1F
100
AcDbEntity
  8
0
  6
Continuous
 62
     7
370
    25
100
AcDbSpline
210
0.0
220
0.0
230
1.0
 70
     8
 71
     3
 72
    11
 73
     7
 74
     0
 42
0.000000001
 43
0.00000001
 40
0.0
 40
0.0
 40
0.0
 40
0.0
 40
0.2590136810530754
 40
0.4995220095903146
 40
0.7390929847909012
 40
1.0
 40
1.0
 40
1.0
 40
1.0
 10
43.33643709453199
 20
5.428637627432811
 30
0.0
 10
43.42141774046382
 20
5.434095298181776
 30
0.0
 10
43.58530755068378
 20
5.444620713862996
 30
0.0
 10
43.81383158494215
 20
5.535449527193578
 30
0.0
 10
44.00647557838875
 20
5.689610748178987
 30
0.0
 10
44.09537887505675
 20
5.828162984326887
 30
0.0
 10
44.14172555607045
 20
5.900392435125119
 30
0.0
  0
SPLINE
  5
8E
330
1F
100
AcDbEntity
  8
0
  6
Continuous
 62
     7
370
    25
100
AcDbSpline
210
0.0
220
0.0
230
1.0
 70
     8
 71
     3
 72
    11
 73
     7
 74
     0
 42
0.000000001
 43
0.00000001
 40
0.0
 40
0.0
 40
0.0
 40
0.0
 40
0.2861446206660785
 40
0.5459951297075529
 40
0.7820198278308724
 40
1.0
 40
1.0
 40
1.0
 40
1.0
 10
42.38090824837813
 20
5.723108781278964
 30
0.0
 10
42.466027049061
 20
5.677714358078298
 30
0.0
 10
42.62844299981765
 20
5.59109685003026
 30
0.0
 10
42.87701055950931
 20
5.503417082897911
 30
0.0
 10
43.10984770758084
 20
5.439170598197833
 30
0.0
 10
43.26293546806961
 20
5.432054338573288
 30
0.0
 10
43.33643709453199
 20
5.428637627432811
 30
0.0
  0
SPLINE
  5
90
330
1F
100
AcDbEntity
  8
0
  6
Continuous
 62
     7
370
    25
100
AcDbSpline
210
0.0
220
0.0
230
1.0
 70
     8
 71
     3
 72
    11
 73
     7
 74
     0
 42
0.000000001
 43
0.00000001
 40
0.0
 40
0.0
 40
0.0
 40
0.0
 40
0.2230922004225537
 40
0.4610751093661958
 40
0.7200305601094015
 40
0.9999999999999999
 40
0.9999999999999999
 40
0.9999999999999999
 40
0.9999999999999999
 10
43.89833613299352
 20
4.082483781278965
 30
0.0
 10
43.78183849885125
 20
4.086508875424616
 30
0.0
 10
43.54106737686081
 20
4.094827726195285
 30
0.0
 10
43.17130926398576
 20
4.167574915979957
 30
0.0
 10
42.77992718541107
 20
4.274475691222706
 30
0.0
 10
42.51732769120821
 20
4.375536143586004
 30
0.0
 10
42.38090824837813
 20
4.42803666589435
 30
0.0
  0
SPLINE
  5
91
330
1F
100
AcDbEntity
  8
0
  6
Continuous
 62
     7
370
    25
100
AcDbSpline
210
0.0
220
0.0
230
1.0
 70
     8
 71
     3
 72
    23
 73
    19
 74
     0
 42
0.000000001
 43
0.00000001
 40
0.0
 40
0.0
 40
0.0
 40
0.0
 40
0.0933143211886277
 40
0.1793119930553868
 40
0.2597971552418438
 40
0.3351316223675539
 40
0.4040604642211276
 40
0.4686941282889355
 40
0.5284666136040497
 40
0.5848826063574748
 40
0.6385847148174213
 40
0.6897123492388805
 40
0.7401443371721164
 40
0.7901895979851883
 40
0.8402983456582788
 40
0.8916809823320587
 40
0.9444675337674963
 40
0.9999999999999999
 40
0.9999999999999999
 40
0.9999999999999999
 40
0.9999999999999999
 10
45.65013901760891
 20
6.711690512048197
 30
0.0
 10
45.64970933914042
 20
6.600448199256635
 30
0.0
 10
45.64888367270922
 20
6.386685932493487
 30
0.0
 10
45.6224326855415
 20
6.078009367422003
 30
0.0
 10
45.58812006263647
 20
5.791821002356234
 30
0.0
 10
45.53808664426317
 20
5.52845290061414
 30
0.0
 10
45.47188643704582
 20
5.288121133683275
 30
0.0
 10
45.39061992457517
 20
5.072363064678382
 30
0.0
 10
45.29920890234308
 20
4.876614263280834
 30
0.0
 10
45.18600208125751
 20
4.708016360958965
 30
0.0
 10
45.06290905227537
 20
4.560051439890802
 30
0.0
 10
44.92885356420553
 20
4.432021065041489
 30
0.0
 10
44.78456979841871
 20
4.322313676110601
 30
0.0
 10
44.62666799198134
 20
4.236183862448948
 30
0.0
 10
44.46028565812171
 20
4.16474232811199
 30
0.0
 10
44.28185642129048
 20
4.118700387646043
 30
0.0
 10
44.09382370071545
 20
4.08633204594744
 30
0.0
 10
43.9645906855613
 20
4.083788033292244
 30
0.0
 10
43.89833613299351
 20
4.082483781278965
 30
0.0
  0
SPLINE
  5
95
330
1F
100
AcDbEntity
  8
0
  6
Continuous
 62
     7
370
    25
100
AcDbSpline
210
0.0
220
0.0
230
1.0
 70
     8
 71
     3
 72
    23
 73
    19
 74
     0
 42
0.000000001
 43
0.00000001
 40
0.0
 40
0.0
 40
0.0
 40
0.0
 40
0.0679784896192545
 40
0.1330435352439078
 40
0.196507438053395
 40
0.2586134167685746
 40
0.3197283376065478
 40
0.3808728540495677
 40
0.4426356023162057
 40
0.5050793035048781
 40
0.5678805200585766
 40
0.6288138541554875
 40
0.6889100905404407
 40
0.7487650058898477
 40
0.809385782963119
 40
0.8708843357532264
 40
0.9340374630737022
 40
1.0
 40
1.0
 40
1.0
 40
1.0
 10
48.53475440222429
 20
16.59149820435589
 30
0.0
 10
48.5370438107489
 20
16.69274990984923
 30
0.0
 10
48.54152450759048
 20
16.89091384264267
 30
0.0
 10
48.57728472862959
 20
17.18208021537048
 30
0.0
 10
48.64239206232681
 20
17.45871516043614
 30
0.0
 10
48.72405601632197
 20
17.72497314475807
 30
0.0
 10
48.83755460679635
 20
17.97569640491981
 30
0.0
 10
48.97317991456045
 20
18.2142284236205
 30
0.0
 10
49.13255459280585
 20
18.44023950077374
 30
0.0
 10
49.3161686964408
 20
18.65025292400815
 30
0.0
 10
49.51805431891317
 20
18.84100717961035
 30
0.0
 10
49.73617476063608
 20
19.00728701377337
 30
0.0
 10
49.96562443169677
 20
19.14917139147238
 30
0.0
 10
50.20737480123552
 20
19.26816493686321
 30
0.0
 10
50.46374825679525
 20
19.35817086226946
 30
0.0
 10
50.73295276966687
 20
19.4201310839915
 30
0.0
 10
51.01444343343505
 20
19.46151052456675
 30
0.0
 10
51.20687683041294
 20
19.46520945726611
 30
0.0
 10
51.30518709453198
 20
19.46709916589435
 30
0.0
  0
SPLINE
  5
96
330
1F
100
AcDbEntity
  8
0
  6
Continuous
 62
     7
370
    25
100
AcDbSpline
210
0.0
220
0.0
230
1.0
 70
     8
 71
     3
 72
    11
 73
     7
 74
     0
 42
0.000000001
 43
0.00000001
 40
0.0
 40
0.0
 40
0.0
 40
0.0
 40
0.2462523706929818
 40
0.4925907964763731
 40
0.7405699911180901
 40
1.0
 40
1.0
 40
1.0
 40
1.0
 10
49.03655728683967
 20
14.90279628127896
 30
0.0
 10
48.95885471688405
 20
15.02770606000333
 30
0.0
 10
48.80342242311572
 20
15.27756926828993
 30
0.0
 10
48.65250017520957
 20
15.69461416857031
 30
0.0
 10
48.54876005145041
 20
16.13366441426736
 30
0.0
 10
48.53949266501048
 20
16.43660807575056
 30
0.0
 10
48.53475440222429
 20
16.59149820435589
 30
0.0
  0
SPLINE
  5
97
330
1F
100
AcDbEntity
  8
0
  6
Continuous
 62
     7
370
    25
100
AcDbSpline
210
0.0
220
0.0
230
1.0
 70
     8
 71
     3
 72
    15
 73
    11
 74
     0
 42
0.000000001
 43
0.00000001
 40
0.0
 40
0.0
 40
0.0
 40
0.0
 40
0.1577616635135491
 40
0.3059502132085415
 40
0.4437754990007253
 40
0.5728243624015404
 40
0.6921541564432427
 40
0.8022957069908461
 40
0.9055643918329942
 40
1.0
 40
1.0
 40
1.0
 40
1.0
 10
50.92658132530121
 20
13.40640205050973
 30
0.0
 10
50.81495286798945
 20
13.46871261478521
 30
0.0
 10
50.59846966444017
 20
13.58955268455026
 30
0.0
 10
50.29183841757224
 20
13.77776445708596
 30
0.0
 10
50.01520689949188
 20
13.96919563428674
 30
0.0
 10
49.76191872279442
 20
14.15310780250005
 30
0.0
 10
49.53837155560537
 20
14.3391975622752
 30
0.0
 10
49.3454460628698
 20
14.52767149713569
 30
0.0
 10
49.17554656644889
 20
14.71092858033271
 30
0.0
 10
49.08148623045795
 20
14.84077413725305
 30
0.0
 10
49.03655728683967
 20
14.90279628127896
 30
0.0
  0
SPLINE
  5
98
330
1F
100
AcDbEntity
  8
0
  6
Continuous
 62
     7
370
    25
100
AcDbSpline
210
0.0
220
0.0
230
1.0
 70
     8
 71
     3
 72
    15
 73
    11
 74
     0
 42
0.000000001
 43
0.00000001
 40
0.0
 40
0.0
 40
0.0
 40
0.0
 40
0.0768750740350487
 40
0.1674616757257288
 40
0.2722700232466411
 40
0.3895508405125235
 40
0.5208013683480569
 40
0.666263293375227
 40
0.8255449152058626
 40
1.0
 40
1.0
 40
1.0
 40
1.0
 10
52.58823997914737
 20
12.27659435820204
 30
0.0
 10
52.55385828874428
 20
12.31531733885245
 30
0.0
 10
52.47896254963175
 20
12.3996699760396
 30
0.0
 10
52.34158294420789
 20
12.52149174258941
 30
0.0
 10
52.17708924906189
 20
12.65279788181784
 30
0.0
 10
51.98363140792367
 20
12.79136183441243
 30
0.0
 10
51.76081942819123
 20
12.93535585709306
 30
0.0
 10
51.50775024794914
 20
13.08402450959105
 30
0.0
 10
51.22789073702737
 20
13.24442904868437
 30
0.0
 10
51.03001660280775
 20
13.35079900015564
 30
0.0
 10
50.92658132530121
 20
13.40640205050973
 30
0.0
  0
SPLINE
  5
99
330
1F
100
AcDbEntity
  8
0
  6
Continuous
 62
     7
370
    25
100
AcDbSpline
210
0.0
220
0.0
230
1.0
 70
     8
 71
     3
 72
    11
 73
     7
 74
     0
 42
0.000000001
 43
0.00000001
 40
0.0
 40
0.0
 40
0.0
 40
0.0
 40
0.2534754346498642
 40
0.5004533151029034
 40
0.7455781350009848
 40
0.9999999999999999
 40
0.9999999999999999
 40
0.9999999999999999
 40
0.9999999999999999
 10
52.95783132530121
 20
11.23092128127896
 30
0.0
 10
52.95317577813489
 20
11.32653393268789
 30
0.0
 10
52.94398402345375
 20
11.5153083140376
 30
0.0
 10
52.87179857200584
 20
11.78852406136958
 30
0.0
 10
52.75774349089242
 20
12.0476781214369
 30
0.0
 10
52.64543785509061
 20
12.19934803818728
 30
0.0
 10
52.58823997914737
 20
12.27659435820204
 30
0.0
  0
SPLINE
  5
9A
330
1F
100
AcDbEntity
  8
0
  6
Continuous
 62
     7
370
    25
100
AcDbSpline
210
0.0
220
0.0
230
1.0
 70
     8
 71
     3
 72
    15
 73
    11
 74
     0
 42
0.000000001
 43
0.00000001
 40
0.0
 40
0.0
 40
0.0
 40
0.0
 40
0.1340420464623701
 40
0.2618956736507319
 40
0.3878360446911185
 40
0.5176862058208265
 40
0.6445086536782128
 40
0.7647182630567264
 40
0.8802907821585
 40
1.0
 40
1.0
 40
1.0
 40
1.0
 10
51.02273517145506
 20
9.46709916589435
 30
0.0
 10
51.15266913984667
 20
9.472974129580923
 30
0.0
 10
51.40653831806447
 20
9.484452823117584
 30
0.0
 10
51.77015442641016
 20
9.588668931816823
 30
0.0
 10
52.10589139691216
 20
9.752083011067057
 30
0.0
 10
52.39742002056445
 20
9.983874574610429
 30
0.0
 10
52.64557213942544
 20
10.25368417146617
 30
0.0
 10
52.82526431545853
 20
10.55760182561053
 30
0.0
 10
52.93787649600517
 20
10.88670806856435
 30
0.0
 10
52.95110220453068
 20
11.11484650836043
 30
0.0
 10
52.95783132530121
 20
11.23092128127896
 30
0.0
  0
SPLINE
  5
9B
330
1F
100
AcDbEntity
  8
0
  6
Continuous
 62
     7
370
    25
100
AcDbSpline
210
0.0
220
0.0
230
1.0
 70
     8
 71
     3
 72
    15
 73
    11
 74
     0
 42
0.000000001
 43
0.00000001
 40
0.0
 40
0.0
 40
0.0
 40
0.0
 40
0.1474758177483587
 40
0.2859041715443761
 40
0.4171716482444362
 40
0.5405007435864954
 40
0.6592377183802376
 40
0.7750060983159538
 40
0.8872285734286367
 40
1.0
 40
1.0
 40
1.0
 40
1.0
 10
48.8502592099166
 20
10.6209453197405
 30
0.0
 10
48.93499812267278
 20
10.52942490033563
 30
0.0
 10
49.09927731785901
 20
10.35199872912434
 30
0.0
 10
49.36199681841885
 20
10.11575155481814
 30
0.0
 10
49.62933710886041
 20
9.917746107109505
 30
0.0
 10
49.89862862275031
 20
9.752131472286704
 30
0.0
 10
50.1738575984226
 20
9.624522601611504
 30
0.0
 10
50.45348165942401
 20
9.534871484856003
 30
0.0
 10
50.73693204825871
 20
9.477253518175855
 30
0.0
 10
50.92731263034381
 20
9.470489451092087
 30
0.0
 10
51.02273517145506
 20
9.46709916589435
 30
0.0
  0
SPLINE
  5
9D
330
1F
100
AcDbEntity
  8
0
  6
Continuous
 62
     7
370
    25
100
AcDbSpline
210
0.0
220
0.0
230
1.0
 70
     8
 71
     3
 72
    15
 73
    11
 74
     0
 42
0.000000001
 43
0.00000001
 40
0.0
 40
0.0
 40
0.0
 40
0.0
 40
0.126742518961846
 40
0.2517239612496063
 40
0.3772186880262427
 40
0.5046935492516285
 40
0.6314582385934854
 40
0.7554010672029511
 40
0.8777005336014759
 40
1.0
 40
1.0
 40
1.0
 40
1.0
 10
51.09184574837813
 20
8.120945319740503
 30
0.0
 10
50.94027213935826
 20
8.125199749707157
 30
0.0
 10
50.63923102390696
 20
8.133649494692797
 30
0.0
 10
50.19398937041237
 20
8.212961185394537
 30
0.0
 10
49.75890040470669
 20
8.336370016684123
 30
0.0
 10
49.33725666053653
 20
8.50658116307605
 30
0.0
 10
48.93848760101203
 20
8.721512789607239
 30
0.0
 10
48.57364078129389
 20
8.978923047834048
 30
0.0
 10
48.24144879931931
 20
9.270308750993525
 30
0.0
 10
48.05237048330724
 20
9.493649796824844
 30
0.0
 10
47.95783132530121
 20
9.605320319740505
 30
0.0
  0
SPLINE
  5
9E
330
1F
100
AcDbEntity
  8
0
  6
Continuous
 62
     7
370
    25
100
AcDbSpline
210
0.0
220
0.0
230
1.0
 70
     8
 71
     3
 72
    23
 73
    19
 74
     0
 42
0.000000001
 43
0.00000001
 40
0.0
 40
0.0
 40
0.0
 40
0.0
 40
0.0645481255642505
 40
0.1271991327555119
 40
0.1885973380874248
 40
0.2486395150940131
 40
0.3095246994640575
 40
0.3700369910533494
 40
0.4318892436070739
 40
0.495704285725294
 40
0.5595193278435131
 40
0.6213715803972377
 40
0.6823971072916403
 40
0.7435684819321645
 40
0.805498483571214
 40
0.8686397008205237
 40
0.9330662250811641
 40
1.0
 40
1.0
 40
1.0
 40
1.0
 10
54.30398517145506
 20
11.28801262743281
 30
0.0
 10
54.30090145510322
 20
11.1797162863836
 30
0.0
 10
54.29482465516227
 20
10.96630651589625
 30
0.0
 10
54.25257579685729
 20
10.65201438860613
 30
0.0
 10
54.17991161261508
 20
10.35143771345019
 30
0.0
 10
54.0809383813707
 20
10.06131506472926
 30
0.0
 10
53.94729106892583
 20
9.787205323511671
 30
0.0
 10
53.79065765256296
 20
9.522192827850294
 30
0.0
 10
53.60262231655229
 20
9.272010267324408
 30
0.0
 10
53.38794499248039
 20
9.036986152276294
 30
0.0
 10
53.15289287542744
 20
8.822332949046261
 30
0.0
 10
52.90215228248388
 20
8.63365886104835
 30
0.0
 10
52.63541443701303
 20
8.47691170162365
 30
0.0
 10
52.35458528805991
 20
8.347203079154006
 30
0.0
 10
52.05902677060618
 20
8.24405340224099
 30
0.0
 10
51.7486926736639
 20
8.17264255401049
 30
0.0
 10
51.4245694397855
 20
8.129902149321117
 30
0.0
 10
51.20415597636703
 20
8.123968679958711
 30
0.0
 10
51.09184574837813
 20
8.120945319740503
 30
0.0
  0
SPLINE
  5
9F
330
1F
100
AcDbEntity
  8
0
  6
Continuous
 62
     7
370
    25
100
AcDbSpline
210
0.0
220
0.0
230
1.0
 70
     8
 71
     3
 72
    11
 73
     7
 74
     0
 42
0.000000001
 43
0.00000001
 40
0.0
 40
0.0
 40
0.0
 40
0.0
 40
0.2488386141270717
 40
0.4952350254576702
 40
0.7433356038750056
 40
1.0
 40
1.0
 40
1.0
 40
1.0
 10
53.79316786376275
 20
12.98272416589435
 30
0.0
 10
53.87121298124295
 20
12.85558378853503
 30
0.0
 10
54.02653724985673
 20
12.60255084089898
 30
0.0
 10
54.18964410609664
 20
12.18590043757259
 30
0.0
 10
54.28418814113715
 20
11.74399828427028
 30
0.0
 10
54.29731194209544
 20
11.44171734091303
 30
0.0
 10
54.30398517145506
 20
11.28801262743281
 30
0.0
  0
SPLINE
  5
A0
330
1F
100
AcDbEntity
  8
0
  6
Continuous
 62
     7
370
    25
100
AcDbSpline
210
0.0
220
0.0
230
1.0
 70
     8
 71
     3
 72
    15
 73
    11
 74
     0
 42
0.000000001
 43
0.00000001
 40
0.0
 40
0.0
 40
0.0
 40
0.0
 40
0.1589891012267946
 40
0.3071145916055731
 40
0.446213158596215
 40
0.5748760724117286
 40
0.6941521095829567
 40
0.8045811801532387
 40
0.9065933190457635
 40
1.0
 40
1.0
 40
1.0
 40
1.0
 10
51.81900920991659
 20
14.52118570435589
 30
0.0
 10
51.93563882604698
 20
14.45585040658105
 30
0.0
 10
52.16092884058643
 20
14.32964412490063
 30
0.0
 10
52.48104070025283
 20
14.13374539557392
 30
0.0
 10
52.77155659012816
 20
13.93903929154451
 30
0.0
 10
53.03493802290819
 20
13.74760811778329
 30
0.0
 10
53.26611720365899
 20
13.554095827997
 30
0.0
 10
53.47210814359538
 20
13.36591972668124
 30
0.0
 10
53.64777290327937
 20
13.17739411974999
 30
0.0
 10
53.7461468747969
 20
13.04568077540682
 30
0.0
 10
53.79316786376276
 20
12.98272416589435
 30
0.0
  0
SPLINE
  5
A1
330
1F
100
AcDbEntity
  8
0
  6
Continuous
 62
     7
370
    25
100
AcDbSpline
210
0.0
220
0.0
230
1.0
 70
     8
 71
     3
 72
    15
 73
    11
 74
     0
 42
0.000000001
 43
0.00000001
 40
0.0
 40
0.0
 40
0.0
 40
0.0
 40
0.0834251049856349
 40
0.1775598214659713
 40
0.2839823599504449
 40
0.4022167468072149
 40
0.5335684803800567
 40
0.6761209941988209
 40
0.83164937255399
 40
1.0
 40
1.0
 40
1.0
 40
1.0
 10
50.25350440222429
 20
15.65099339666358
 30
0.0
 10
50.28763366124577
 20
15.6090594638077
 30
0.0
 10
50.36027348758658
 20
15.51980837287365
 30
0.0
 10
50.49659569462985
 20
15.39593471536982
 30
0.0
 10
50.65097784974547
 20
15.25903935404766
 30
0.0
 10
50.83663472574093
 20
15.12216719556827
 30
0.0
 10
51.04556770238689
 20
14.97803123039834
 30
0.0
 10
51.28230749187443
 20
14.83230780336426
 30
0.0
 10
51.53934108460753
 20
14.67388883955715
 30
0.0
 10
51.72335811296449
 20
14.5734126872267
 30
0.0
 10
51.81900920991659
 20
14.52118570435589
 30
0.0
  0
SPLINE
  5
A2
330
1F
100
AcDbEntity
  8
0
  6
Continuous
 62
     7
370
    25
100
AcDbSpline
210
0.0
220
0.0
230
1.0
 70
     8
 71
     3
 72
    11
 73
     7
 74
     0
 42
0.000000001
 43
0.00000001
 40
0.0
 40
0.0
 40
0.0
 40
0.0
 40
0.24003993149598
 40
0.4794031936060903
 40
0.7317567388575621
 40
1.0
 40
1.0
 40
1.0
 40
1.0
 10
49.88090824837815
 20
16.64558474281743
 30
0.0
 10
49.88566887237247
 20
16.55896169645325
 30
0.0
 10
49.89517670022518
 20
16.38595979294468
 30
0.0
 10
49.96909103970211
 20
16.13075393362815
 30
0.0
 10
50.08680277761505
 20
15.88193805565914
 30
0.0
 10
50.19681789596886
 20
15.72952559985893
 30
0.0
 10
50.25350440222429
 20
15.65099339666358
 30
0.0
  0
SPLINE
  5
A3
330
1F
100
AcDbEntity
  8
0
  6
Continuous
 62
     7
370
    25
100
AcDbSpline
210
0.0
220
0.0
230
1.0
 70
     8
 71
     3
 72
    15
 73
    11
 74
     0
 42
0.000000001
 43
0.00000001
 40
0.0
 40
0.0
 40
0.0
 40
0.0
 40
0.1249584925460619
 40
0.2459006286062659
 40
0.369166029586072
 40
0.4985108411773541
 40
0.6285038663666053
 40
0.7510283288509906
 40
0.8737241742784329
 40
1.0
 40
1.0
 40
1.0
 40
1.0
 10
51.30518709453199
 20
18.12094531974051
 30
0.0
 10
51.21030399521018
 20
18.11633872126462
 30
0.0
 10
51.02358748405553
 20
18.10727358741196
 30
0.0
 10
50.7560482626256
 20
18.01678745740579
 30
0.0
 10
50.50768844112007
 20
17.87789286400606
 30
0.0
 10
50.29272995537934
 20
17.68088464876952
 30
0.0
 10
50.11063989814517
 20
17.45475206807783
 30
0.0
 10
49.97772412235251
 20
17.20191067570944
 30
0.0
 10
49.89644133536899
 20
16.92999048839664
 30
0.0
 10
49.88613534090275
 20
16.74129109838935
 30
0.0
 10
49.88090824837814
 20
16.64558474281742
 30
0.0
  0
SPLINE
  5
A4
330
1F
100
AcDbEntity
  8
0
  6
Continuous
 62
     7
370
    25
100
AcDbSpline
210
0.0
220
0.0
230
1.0
 70
     8
 71
     3
 72
    15
 73
    11
 74
     0
 42
0.000000001
 43
0.00000001
 40
0.0
 40
0.0
 40
0.0
 40
0.0
 40
0.1582230975563202
 40
0.3050355053581684
 40
0.4413089638879051
 40
0.5659632271047241
 40
0.6835251144150616
 40
0.7933341296295999
 40
0.8985175121610015
 40
1.0
 40
1.0
 40
1.0
 40
1.0
 10
53.19821594068583
 20
16.96709916589435
 30
0.0
 10
53.11939949699443
 20
17.05844122161485
 30
0.0
 10
52.96745067218153
 20
17.23453795184879
 30
0.0
 10
52.72645861074253
 20
17.469982522578
 30
0.0
 10
52.48635745256694
 20
17.66771226090235
 30
0.0
 10
52.25043396582451
 20
17.8346505133708
 30
0.0
 10
52.01275566979208
 20
17.96086114168146
 30
0.0
 10
51.7761117349395
 20
18.05298197856852
 30
0.0
 10
51.54025714130399
 20
18.10998971711444
 30
0.0
 10
51.38260270466689
 20
18.11733731151768
 30
0.0
 10
51.30518709453198
 20
18.1209453197405
 30
0.0
  0
SPLINE
  5
A6
330
1F
100
AcDbEntity
  8
0
  6
Continuous
 62
     7
370
    25
100
AcDbSpline
210
0.0
220
0.0
230
1.0
 70
     8
 71
     3
 72
    15
 73
    11
 74
     0
 42
0.000000001
 43
0.00000001
 40
0.0
 40
0.0
 40
0.0
 40
0.0
 40
0.1057142614175182
 40
0.2134116126389974
 40
0.3261267300734721
 40
0.4444516715568704
 40
0.5690610798550858
 40
0.7027122044812169
 40
0.8463179465861971
 40
1.0
 40
1.0
 40
1.0
 40
1.0
 10
51.30518709453198
 20
19.46709916589435
 30
0.0
 10
51.4217245093847
 20
19.46236627719127
 30
0.0
 10
51.65698546001721
 20
19.4528117157062
 30
0.0
 10
52.00993385736626
 20
19.37693018454304
 30
0.0
 10
52.36236246631242
 20
19.25207402411673
 30
0.0
 10
52.71517682331653
 20
19.07963302409507
 30
0.0
 10
53.06579234924563
 20
18.85648927032284
 30
0.0
 10
53.41729316357018
 20
18.58679227303004
 30
0.0
 10
53.77389900767081
 20
18.272316353705
 30
0.0
 10
53.99656892096246
 20
18.03189110190508
 30
0.0
 10
54.11167747914737
 20
17.90760397358666
 30
0.0
  0
LINE
  5
AF
330
1F
100
AcDbEntity
  8
0
  6
Continuous
 62
     7
370
    25
100
AcDbLine
 10
31.0347544022
 20
15.6209453197
 30
0.0
 11
37.3809082484
 21
15.6209453197
 31
0.0
  0
LINE
  5
B0
330
1F
100
AcDbEntity
  8
0
  6
Continuous
 62
     7
370
    25
100
AcDbLine
 10
31.0347544022
 20
14.0824837813
 30
0.0
 11
31.0347544022
 21
15.6209453197
 31
0.0
  0
LINE
  5
B1
330
1F
100
AcDbEntity
  8
0
  6
Continuous
 62
     7
370
    25
100
AcDbLine
 10
36.0347544022
 20
14.0824837813
 30
0.0
 11
31.0347544022
 21
14.0824837813
 31
0.0
  0
LINE
  5
B2
330
1F
100
AcDbEntity
  8
0
  6
Continuous
 62
     7
370
    25
100
AcDbLine
 10
36.4193697868
 20
20.7531568582
 30
0.0
 11
35.265523633
 21
19.6594068582
 31
0.0
  0
LINE
  5
B3
330
1F
100
AcDbEntity
  8
0
  6
Continuous
 62
     7
370
    25
100
AcDbLine
 10
41.2270620945
 20
8.313253012
 30
0.0
 11
39.8809082484
 21
8.313253012
 31
0.0
  0
LINE
  5
B4
330
1F
100
AcDbEntity
  8
0
  6
Continuous
 62
     7
370
    25
100
AcDbLine
 10
41.2270620945
 20
19.2747914736
 30
0.0
 11
41.2270620945
 21
8.313253012
 31
0.0
  0
LINE
  5
B5
330
1F
100
AcDbEntity
  8
0
  6
Continuous
 62
     7
370
    25
100
AcDbLine
 10
39.8809082484
 20
19.2747914736
 30
0.0
 11
41.2270620945
 21
19.2747914736
 31
0.0
  0
LINE
  5
B6
330
1F
100
AcDbEntity
  8
0
  6
Continuous
 62
     7
370
    25
100
AcDbLine
 10
39.8809082484
 20
8.313253012
 30
0.0
 11
39.8809082484
 21
19.2747914736
 31
0.0
  0
LINE
  5
B7
330
1F
100
AcDbEntity
  8
0
  6
Continuous
 62
     7
370
    25
100
AcDbLine
 10
42.3809082484
 20
4.4280366659
 30
0.0
 11
42.3809082484
 21
5.7231087813
 31
0.0
  0
LINE
  5
B8
330
1F
100
AcDbEntity
  8
0
  6
Continuous
 62
     7
370
    25
100
AcDbLine
 10
45.6501390176
 20
19.2747914736
 30
0.0
 11
45.6501390176
 21
6.711690512
 31
0.0
  0
LINE
  5
B9
330
1F
100
AcDbEntity
  8
0
  6
Continuous
 62
     7
370
    25
100
AcDbLine
 10
44.3039851715
 20
19.2747914736
 30
0.0
 11
45.6501390176
 21
19.2747914736
 31
0.0
  0
LINE
  5
BA
330
1F
100
AcDbEntity
  8
0
  6
Continuous
 62
     7
370
    25
100
AcDbLine
 10
44.3039851715
 20
7.1503924351
 30
0.0
 11
44.3039851715
 21
19.2747914736
 31
0.0
  0
LINE
  5
BB
330
1F
100
AcDbEntity
  8
0
  6
Continuous
 62
     7
370
    25
100
AcDbLine
 10
47.9578313253
 20
9.6053203197
 30
0.0
 11
48.8502592099
 21
10.6209453197
 31
0.0
  0
LINE
  5
BC
330
1F
100
AcDbEntity
  8
0
  6
Continuous
 62
     7
370
    25
100
AcDbLine
 10
54.1116774791
 20
17.9076039736
 30
0.0
 11
53.1982159407
 21
16.9670991659
 31
0.0
  0
LINE
  5
BD
330
1F
100
AcDbEntity
  8
0
  6
Continuous
 62
     7
370
    25
100
AcDbLine
 10
5.0
 20
0.0
 30
0.0
 11
75.0
 21
0.0
 31
0.0
  0
LINE
  5
BE
330
1F
100
AcDbEntity
  8
0
  6
Continuous
 62
     7
370
    25
100
AcDbLine
 10
0.0
 20
25.0
 30
0.0
 11
0.0
 21
5.0
 31
0.0
  0
LINE
  5
BF
330
1F
100
AcDbEntity
  8
0
  6
Continuous
 62
     7
370
    25
100
AcDbLine
 10
75.0
 20
30.0
 30
0.0
 11
5.0
 21
30.0
 31
0.0
  0
LINE
  5
C0
330
1F
100
AcDbEntity
  8
0
  6
Continuous
 62
     7
370
    25
100
AcDbLine
 10
80.0
 20
5.0
 30
0.0
 11
80.0
 21
25.0
 31
0.0
  0
ARC
  5
C1
330
1F
100
AcDbEntity
  8
0
  6
Continuous
 62
     7
370
    25
100
AcDbCircle
 10
5.0
 20
5.0
 30
0.0
 40
5.000000000000007
100
AcDbArc
 50
180.0
 51
270.0
  0
ARC
  5
C2
330
1F
100
AcDbEntity
  8
0
  6
Continuous
 62
     7
370
    25
100
AcDbCircle
 10
5.0
 20
25.0
 30
0.0
 40
4.999999999999996
100
AcDbArc
 50
90.0
 51
180.0
  0
ARC
  5
C3
330
1F
100
AcDbEntity
  8
0
  6
Continuous
 62
     7
370
    25
100
AcDbCircle
 10
75.0
 20
25.0
 30
0.0
 40
4.999999999999986
100
AcDbArc
 50
0.0
 51
90.0
  0
ARC
  5
C4
330
1F
100
AcDbEntity
  8
0
  6
Continuous
 62
     7
370
    25
100
AcDbCircle
 10
75.0
 20
5.0
 30
0.0
 40
5.00000000000002
100
AcDbArc
 50
270.0
 51
0.0
  0
MTEXT
  5
C6
330
1F
100
AcDbEntity
  8
0
  6
Continuous
 62
     7
100
AcDbMText
 10
0.0
 20
-1.0195663917
 30
0.0
 40
4.83362
 41
0.0
 71
     1
 72
     1
  1
SOLIDWORKS Educational Product.
  7
SLDTEXTSTYLE0
 73
     1
 44
1.0
  0
MTEXT
  5
C7
330
1F
100
AcDbEntity
  8
0
  6
Continuous
 62
     7
100
AcDbMText
 10
0.0
 20
-8.2699963917
 30
0.0
 40
4.83362
 41
0.0
 71
     1
 72
     1
  1
For Instructional Use Only.
  7
SLDTEXTSTYLE0
 73
     1
 44
1.0
  0
ENDSEC
  0
SECTION
  2
OBJECTS
  0
DICTIONARY
  5
C
330
0
100
AcDbDictionary
281
     1
  3
ACAD_GROUP
350
D
  3
ACAD_LAYOUT
350
1A
  3
ACAD_MLINESTYLE
350
17
  3
ACAD_PLOTSETTINGS
350
19
  3
ACAD_PLOTSTYLENAME
350
E
  3
ACAD_SCALELIST
350
47
  0
DICTIONARY
  5
D
102
{ACAD_REACTORS
330
C
102
}
330
C
100
AcDbDictionary
281
     1
  0
DICTIONARY
  5
1A
102
{ACAD_REACTORS
330
C
102
}
330
C
100
AcDbDictionary
281
     1
  3
Layout1
350
1E
  3
Layout2
350
26
  3
Model
350
22
  0
DICTIONARY
  5
17
102
{ACAD_REACTORS
330
C
102
}
330
C
100
AcDbDictionary
281
     1
  3
Standard
350
18
  0
DICTIONARY
  5
19
102
{ACAD_REACTORS
330
C
102
}
330
C
100
AcDbDictionary
281
     1
  0
ACDBDICTIONARYWDFLT
  5
E
102
{ACAD_REACTORS
330
C
102
}
330
C
100
AcDbDictionary
281
     1
  3
Normal
350
F
100
AcDbDictionaryWithDefault
340
F
  0
DICTIONARY
  5
47
102
{ACAD_REACTORS
330
C
102
}
330
C
100
AcDbDictionary
281
     1
  3
A0
350
48
  3
A1
350
49
  3
A2
350
4A
  3
A3
350
4B
  3
A4
350
4C
  3
A5
350
4D
  3
A6
350
4E
  3
A7
350
4F
  3
A8
350
50
  3
A9
350
51
  3
B0
350
52
  3
B1
350
53
  3
B2
350
54
  3
B3
350
55
  3
B4
350
56
  3
B5
350
57
  3
B6
350
58
  3
B7
350
59
  3
B8
350
5A
  3
B9
350
5B
  3
C0
350
5C
  3
C1
350
5D
  3
C2
350
5E
  3
C3
350
5F
  3
C4
350
60
  3
C5
350
61
  3
C6
350
62
  3
C7
350
63
  3
C8
350
64
  3
C9
350
65
  3
D0
350
66
  3
D1
350
67
  3
D2
350
68
  0
LAYOUT
  5
1E
102
{ACAD_REACTORS
330
1A
102
}
330
1A
100
AcDbPlotSettings
  1

  2
none_device
  4

  6

 40
0.0
 41
0.0
 42
0.0
 43
0.0
 44
0.0
 45
0.0
 46
0.0
 47
0.0
 48
0.0
 49
0.0
140
0.0
141
0.0
142
1.0
143
1.0
 70
   688
 72
     1
 73
     0
 74
     5
  7

 75
    16
147
1.0
148
0.0
149
0.0
100
AcDbLayout
  1
Layout1
 70
     1
 71
     1
 10
0.0
 20
0.0
 11
420.0
 21
297.0
 12
0.0
 22
0.0
 32
0.0
 14
1.0000000000E+20
 24
1.0000000000E+20
 34
1.0000000000E+20
 15
-1.0000000000E+20
 25
-1.0000000000E+20
 35
-1.0000000000E+20
146
0.0
 13
0.0
 23
0.0
 33
0.0
 16
1.0
 26
0.0
 36
0.0
 17
0.0
 27
1.0
 37
0.0
 76
     0
330
1B
  0
LAYOUT
  5
26
102
{ACAD_REACTORS
330
1A
102
}
330
1A
100
AcDbPlotSettings
  1

  2
none_device
  4

  6

 40
0.0
 41
0.0
 42
0.0
 43
0.0
 44
0.0
 45
0.0
 46
0.0
 47
0.0
 48
0.0
 49
0.0
140
0.0
141
0.0
142
1.0
143
1.0
 70
   688
 72
     1
 73
     0
 74
     5
  7

 75
    16
147
1.0
148
0.0
149
0.0
100
AcDbLayout
  1
Layout2
 70
     1
 71
     2
 10
0.0
 20
0.0
 11
0.0
 21
0.0
 12
0.0
 22
0.0
 32
0.0
 14
0.0
 24
0.0
 34
0.0
 15
0.0
 25
0.0
 35
0.0
146
0.0
 13
0.0
 23
0.0
 33
0.0
 16
1.0
 26
0.0
 36
0.0
 17
0.0
 27
1.0
 37
0.0
 76
     0
330
23
  0
LAYOUT
  5
22
102
{ACAD_REACTORS
330
1A
102
}
330
1A
100
AcDbPlotSettings
  1

  2
none_device
  4
ANSI_A_(11.00_x_8.50_Inches)
  6

 40
6.35
 41
19.05
 42
6.35000508
 43
19.05000254
 44
279.4
 45
215.9
 46
-4.95300254
 47
37.03637373
 48
0.0
 49
0.0
140
0.0
141
0.0
142
0.136125
143
1.0
 70
  1696
 72
     0
 73
     0
 74
     0
  7

 75
     0
147
0.0179189148
148
-1300.4909072572
149
0.0
100
AcDbLayout
  1
Model
 70
     1
 71
     0
 10
0.0
 20
0.0
 11
420.0
 21
297.0
 12
0.0
 22
0.0
 32
0.0
 14
0.0
 24
0.0
 34
0.0
 15
80.0
 25
30.0
 35
0.0
146
0.0
 13
0.0
 23
0.0
 33
0.0
 16
1.0
 26
0.0
 36
0.0
 17
0.0
 27
1.0
 37
0.0
 76
     0
330
1F
331
29
  0
MLINESTYLE
  5
18
102
{ACAD_REACTORS
330
17
102
}
330
17
100
AcDbMlineStyle
  2
Standard
 70
     0
  3

 62
   256
 51
90.0
 52
90.0
 71
     2
 49
0.5
 62
   256
  6
BYLAYER
 49
-0.5
 62
   256
  6
BYLAYER
  0
ACDBPLACEHOLDER
  5
F
102
{ACAD_REACTORS
330
E
102
}
330
E
  0
SCALE
  5
48
102
{ACAD_REACTORS
330
47
102
}
330
47
100
AcDbScale
 70
     0
300
1:1
140
1.0
141
1.0
290
     1
  0
SCALE
  5
49
102
{ACAD_REACTORS
330
47
102
}
330
47
100
AcDbScale
 70
     0
300
1:2
140
1.0
141
2.0
290
     0
  0
SCALE
  5
4A
102
{ACAD_REACTORS
330
47
102
}
330
47
100
AcDbScale
 70
     0
300
1:4
140
1.0
141
4.0
290
     0
  0
SCALE
  5
4B
102
{ACAD_REACTORS
330
47
102
}
330
47
100
AcDbScale
 70
     0
300
1:5
140
1.0
141
5.0
290
     0
  0
SCALE
  5
4C
102
{ACAD_REACTORS
330
47
102
}
330
47
100
AcDbScale
 70
     0
300
1:8
140
1.0
141
8.0
290
     0
  0
SCALE
  5
4D
102
{ACAD_REACTORS
330
47
102
}
330
47
100
AcDbScale
 70
     0
300
1:10
140
1.0
141
10.0
290
     0
  0
SCALE
  5
4E
102
{ACAD_REACTORS
330
47
102
}
330
47
100
AcDbScale
 70
     0
300
1:16
140
1.0
141
16.0
290
     0
  0
SCALE
  5
4F
102
{ACAD_REACTORS
330
47
102
}
330
47
100
AcDbScale
 70
     0
300
1:20
140
1.0
141
20.0
290
     0
  0
SCALE
  5
50
102
{ACAD_REACTORS
330
47
102
}
330
47
100
AcDbScale
 70
     0
300
1:30
140
1.0
141
30.0
290
     0
  0
SCALE
  5
51
102
{ACAD_REACTORS
330
47
102
}
330
47
100
AcDbScale
 70
     0
300
1:40
140
1.0
141
40.0
290
     0
  0
SCALE
  5
52
102
{ACAD_REACTORS
330
47
102
}
330
47
100
AcDbScale
 70
     0
300
1:50
140
1.0
141
50.0
290
     0
  0
SCALE
  5
53
102
{ACAD_REACTORS
330
47
102
}
330
47
100
AcDbScale
 70
     0
300
1:100
140
1.0
141
100.0
290
     0
  0
SCALE
  5
54
102
{ACAD_REACTORS
330
47
102
}
330
47
100
AcDbScale
 70
     0
300
2:1
140
2.0
141
1.0
290
     0
  0
SCALE
  5
55
102
{ACAD_REACTORS
330
47
102
}
330
47
100
AcDbScale
 70
     0
300
4:1
140
4.0
141
1.0
290
     0
  0
SCALE
  5
56
102
{ACAD_REACTORS
330
47
102
}
330
47
100
AcDbScale
 70
     0
300
8:1
140
8.0
141
1.0
290
     0
  0
SCALE
  5
57
102
{ACAD_REACTORS
330
47
102
}
330
47
100
AcDbScale
 70
     0
300
10:1
140
10.0
141
1.0
290
     0
  0
SCALE
  5
58
102
{ACAD_REACTORS
330
47
102
}
330
47
100
AcDbScale
 70
     0
300
100:1
140
100.0
141
1.0
290
     0
  0
SCALE
  5
59
102
{ACAD_REACTORS
330
47
102
}
330
47
100
AcDbScale
 70
     0
300
1/128" = 1'-0"
140
0.0078125
141
12.0
290
     0
  0
SCALE
  5
5A
102
{ACAD_REACTORS
330
47
102
}
330
47
100
AcDbScale
 70
     0
300
1/64" = 1'-0"
140
0.015625
141
12.0
290
     0
  0
SCALE
  5
5B
102
{ACAD_REACTORS
330
47
102
}
330
47
100
AcDbScale
 70
     0
300
1/32" = 1'-0"
140
0.03125
141
12.0
290
     0
  0
SCALE
  5
5C
102
{ACAD_REACTORS
330
47
102
}
330
47
100
AcDbScale
 70
     0
300
1/16" = 1'-0"
140
0.0625
141
12.0
290
     0
  0
SCALE
  5
5D
102
{ACAD_REACTORS
330
47
102
}
330
47
100
AcDbScale
 70
     0
300
3/32" = 1'-0"
140
0.09375
141
12.0
290
     0
  0
SCALE
  5
5E
102
{ACAD_REACTORS
330
47
102
}
330
47
100
AcDbScale
 70
     0
300
1/8" = 1'-0"
140
0.125
141
12.0
290
     0
  0
SCALE
  5
5F
102
{ACAD_REACTORS
330
47
102
}
330
47
100
AcDbScale
 70
     0
300
3/16" = 1'-0"
140
0.1875
141
12.0
290
     0
  0
SCALE
  5
60
102
{ACAD_REACTORS
330
47
102
}
330
47
100
AcDbScale
 70
     0
300
1/4" = 1'-0"
140
0.25
141
12.0
290
     0
  0
SCALE
  5
61
102
{ACAD_REACTORS
330
47
102
}
330
47
100
AcDbScale
 70
     0
300
3/8" = 1'-0"
140
0.375
141
12.0
290
     0
  0
SCALE
  5
62
102
{ACAD_REACTORS
330
47
102
}
330
47
100
AcDbScale
 70
     0
300
1/2" = 1'-0"
140
0.5
141
12.0
290
     0
  0
SCALE
  5
63
102
{ACAD_REACTORS
330
47
102
}
330
47
100
AcDbScale
 70
     0
300
3/4" = 1'-0"
140
0.75
141
12.0
290
     0
  0
SCALE
  5
64
102
{ACAD_REACTORS
330
47
102
}
330
47
100
AcDbScale
 70
     0
300
1" = 1'-0"
140
1.0
141
12.0
290
     0
  0
SCALE
  5
65
102
{ACAD_REACTORS
330
47
102
}
330
47
100
AcDbScale
 70
     0
300
1-1/2" = 1'-0"
140
1.5
141
12.0
290
     0
  0
SCALE
  5
66
102
{ACAD_REACTORS
330
47
102
}
330
47
100
AcDbScale
 70
     0
300
3" = 1'-0"
140
3.0
141
12.0
290
     0
  0
SCALE
  5
67
102
{ACAD_REACTORS
330
47
102
}
330
47
100
AcDbScale
 70
     0
300
6" = 1'-0"
140
6.0
141
12.0
290
     0
  0
SCALE
  5
68
102
{ACAD_REACTORS
330
47
102
}
330
47
100
AcDbScale
 70
     0
300
1'-0" = 1'-0"
140
12.0
141
12.0
290
     0
  0
ENDSEC
  0
EOF
